ISO-10303-21;
HEADER;
FILE_DESCRIPTION (( 'STEP AP203' ),
    '1' );
FILE_NAME ('QB-CTZHWP-12.7-1550-M.STEP',
    '2020-12-24T01:34:48',
    ( '' ),
    ( '' ),
    'SwSTEP 2.0',
    'SolidWorks 2020',
    '' );
FILE_SCHEMA (( 'CONFIG_CONTROL_DESIGN' ));
ENDSEC;

DATA;
#1 = CARTESIAN_POINT ( 'NONE',  ( 3.000000000000000000, 1.555301434917138433E-15, -12.69999999999999929 ) ) ;
#2 = DIRECTION ( 'NONE',  ( 1.000000000000000000, 0.000000000000000000, 0.000000000000000000 ) ) ;
#3 = ADVANCED_FACE ( 'NONE', ( #92 ), #185, .T. ) ;
#4 = APPROVAL_STATUS ( 'not_yet_approved' ) ;
#5 = DIRECTION ( 'NONE',  ( -1.000000000000000000, -0.000000000000000000, -0.000000000000000000 ) ) ;
#6 = ORIENTED_EDGE ( 'NONE', *, *, #221, .F. ) ;
#7 = PERSON_AND_ORGANIZATION ( #136, #304 ) ;
#8 = CARTESIAN_POINT ( 'NONE',  ( -3.000000000000000000, 0.000000000000000000, 0.000000000000000000 ) ) ;
#9 = ORIENTED_EDGE ( 'NONE', *, *, #157, .T. ) ;
#10 = APPROVAL_DATE_TIME ( #320, #109 ) ;
#11 = CARTESIAN_POINT ( 'NONE',  ( -1.500000000000000444, 0.000000000000000000, 6.349999999999999645 ) ) ;
#12 = FACE_OUTER_BOUND ( 'NONE', #245, .T. ) ;
#13 = AXIS2_PLACEMENT_3D ( 'NONE', #74, #247, #99 ) ;
#14 = PERSON_AND_ORGANIZATION ( #136, #304 ) ;
#15 = DIRECTION ( 'NONE',  ( -0.000000000000000000, 0.000000000000000000, 1.000000000000000000 ) ) ;
#16 = ORIENTED_EDGE ( 'NONE', *, *, #56, .F. ) ;
#17 = DIRECTION ( 'NONE',  ( -1.000000000000000000, 0.000000000000000000, -0.000000000000000000 ) ) ;
#18 = ORIENTED_EDGE ( 'NONE', *, *, #288, .F. ) ;
#19 = FACE_OUTER_BOUND ( 'NONE', #212, .T. ) ;
#20 = CARTESIAN_POINT ( 'NONE',  ( -3.000000000000000000, 6.349999999999999645, 0.000000000000000000 ) ) ;
#21 = LOCAL_TIME ( 9, 34, 48.00000000000000000, #239 ) ;
#22 = EDGE_LOOP ( 'NONE', ( #192, #217, #144, #319 ) ) ;
#23 = VERTEX_POINT ( 'NONE', #96 ) ;
#24 = ORIENTED_EDGE ( 'NONE', *, *, #56, .T. ) ;
#25 = VECTOR ( 'NONE', #213, 1000.000000000000000 ) ;
#26 = CC_DESIGN_DATE_AND_TIME_ASSIGNMENT ( #190, #248, ( #189 ) ) ;
#27 = CIRCLE ( 'NONE', #52, 12.69999999999999929 ) ;
#28 = CIRCLE ( 'NONE', #282, 12.69999999999999929 ) ;
#29 = DESIGN_CONTEXT ( 'detailed design', #253, 'design' ) ;
#30 = ADVANCED_FACE ( 'NONE', ( #12 ), #294, .F. ) ;
#31 = DATE_AND_TIME ( #87, #256 ) ;
#32 =( LENGTH_UNIT ( ) NAMED_UNIT ( * ) SI_UNIT ( .MILLI., .METRE. ) );
#33 = CIRCLE ( 'NONE', #59, 6.349999999999999645 ) ;
#34 = ORIENTED_EDGE ( 'NONE', *, *, #278, .F. ) ;
#35 = AXIS2_PLACEMENT_3D ( 'NONE', #95, #2, #161 ) ;
#36 = DIRECTION ( 'NONE',  ( 0.000000000000000000, 0.000000000000000000, 1.000000000000000000 ) ) ;
#37 = VERTEX_POINT ( 'NONE', #151 ) ;
#38 = CARTESIAN_POINT ( 'NONE',  ( -1.614212418857619014, 0.000000000000000000, 0.000000000000000000 ) ) ;
#39 = VERTEX_POINT ( 'NONE', #328 ) ;
#40 = PRODUCT ( 'QB-CTZHWP-12.7-1550-M', 'QB-CTZHWP-12.7-1550-M', '', ( #91 ) ) ;
#41 = SECURITY_CLASSIFICATION_LEVEL ( 'unclassified' ) ;
#42 = LINE ( 'NONE', #139, #57 ) ;
#43 = ORIENTED_EDGE ( 'NONE', *, *, #221, .T. ) ;
#44 = CIRCLE ( 'NONE', #332, 12.69999999999999929 ) ;
#45 = CALENDAR_DATE ( 2020, 24, 12 ) ;
#46 = CARTESIAN_POINT ( 'NONE',  ( 3.000000000000000888, 7.776507174585692163E-16, -6.349999999999999645 ) ) ;
#47 = VERTEX_POINT ( 'NONE', #126 ) ;
#48 = EDGE_CURVE ( 'NONE', #290, #279, #322, .T. ) ;
#49 = CARTESIAN_POINT ( 'NONE',  ( 3.000000000000000000, 12.69999999999999929, 0.000000000000000000 ) ) ;
#50 = ORIENTED_EDGE ( 'NONE', *, *, #157, .F. ) ;
#51 = DATE_AND_TIME ( #259, #292 ) ;
#52 = AXIS2_PLACEMENT_3D ( 'NONE', #76, #171, #277 ) ;
#53 =( NAMED_UNIT ( * ) PLANE_ANGLE_UNIT ( ) SI_UNIT ( $, .RADIAN. ) );
#54 = CIRCLE ( 'NONE', #115, 6.349999999999999645 ) ;
#55 = EDGE_CURVE ( 'NONE', #334, #37, #27, .T. ) ;
#56 = EDGE_CURVE ( 'NONE', #274, #210, #250, .T. ) ;
#57 = VECTOR ( 'NONE', #5, 1000.000000000000000 ) ;
#58 = CC_DESIGN_PERSON_AND_ORGANIZATION_ASSIGNMENT ( #242, #66, ( #40 ) ) ;
#59 = AXIS2_PLACEMENT_3D ( 'NONE', #255, #152, #105 ) ;
#60 = VECTOR ( 'NONE', #211, 1000.000000000000000 ) ;
#61 = EDGE_CURVE ( 'NONE', #23, #301, #33, .T. ) ;
#62 = EDGE_CURVE ( 'NONE', #39, #301, #329, .T. ) ;
#63 = DIRECTION ( 'NONE',  ( -1.000000000000000000, -0.000000000000000000, -0.000000000000000000 ) ) ;
#64 = PERSON_AND_ORGANIZATION ( #136, #304 ) ;
#65 = CARTESIAN_POINT ( 'NONE',  ( 3.000000000000000888, 0.000000000000000000, 6.349999999999999645 ) ) ;
#66 = PERSON_AND_ORGANIZATION_ROLE ( 'design_owner' ) ;
#67 = CARTESIAN_POINT ( 'NONE',  ( -1.614212418857619014, 0.000000000000000000, 0.000000000000000000 ) ) ;
#68 = EDGE_CURVE ( 'NONE', #131, #274, #163, .T. ) ;
#69 = LOCAL_TIME ( 9, 34, 48.00000000000000000, #295 ) ;
#70 = DIRECTION ( 'NONE',  ( -1.000000000000000000, -0.000000000000000000, -0.000000000000000000 ) ) ;
#71 = CC_DESIGN_DATE_AND_TIME_ASSIGNMENT ( #31, #235, ( #197 ) ) ;
#72 = PERSON_AND_ORGANIZATION_ROLE ( 'creator' ) ;
#73 = CARTESIAN_POINT ( 'NONE',  ( -1.614212418857619014, 0.000000000000000000, 6.349999999999999645 ) ) ;
#74 = CARTESIAN_POINT ( 'NONE',  ( 3.000000000000000000, 0.000000000000000000, 0.000000000000000000 ) ) ;
#75 = CARTESIAN_POINT ( 'NONE',  ( -1.614212418857619014, 7.776507174585692163E-16, -6.349999999999999645 ) ) ;
#76 = CARTESIAN_POINT ( 'NONE',  ( -3.000000000000000000, 0.000000000000000000, 0.000000000000000000 ) ) ;
#77 = VECTOR ( 'NONE', #289, 1000.000000000000000 ) ;
#78 = DIRECTION ( 'NONE',  ( -1.000000000000000000, -0.000000000000000000, -0.000000000000000000 ) ) ;
#79 = DIRECTION ( 'NONE',  ( 0.000000000000000000, 0.000000000000000000, 1.000000000000000000 ) ) ;
#80 = FACE_OUTER_BOUND ( 'NONE', #120, .T. ) ;
#81 = AXIS2_PLACEMENT_3D ( 'NONE', #236, #240, #318 ) ;
#82 = ADVANCED_FACE ( 'NONE', ( #222 ), #280, .T. ) ;
#83 = AXIS2_PLACEMENT_3D ( 'NONE', #130, #98, #79 ) ;
#84 = CARTESIAN_POINT ( 'NONE',  ( -2.999999999999999556, 0.000000000000000000, 0.000000000000000000 ) ) ;
#85 = APPLICATION_PROTOCOL_DEFINITION ( 'international standard', 'config_control_design', 1994, #253 ) ;
#86 = DIRECTION ( 'NONE',  ( -1.000000000000000000, -0.000000000000000000, -0.000000000000000000 ) ) ;
#87 = CALENDAR_DATE ( 2020, 24, 12 ) ;
#88 = ADVANCED_FACE ( 'NONE', ( #19, #327 ), #173, .F. ) ;
#89 = DIRECTION ( 'NONE',  ( -1.000000000000000000, -0.000000000000000000, -0.000000000000000000 ) ) ;
#90 = EDGE_LOOP ( 'NONE', ( #196, #175, #9, #16 ) ) ;
#91 = MECHANICAL_CONTEXT ( 'NONE', #162, 'mechanical' ) ;
#92 = FACE_OUTER_BOUND ( 'NONE', #269, .T. ) ;
#93 = CC_DESIGN_APPROVAL ( #261, ( #205 ) ) ;
#94 = AXIS2_PLACEMENT_3D ( 'NONE', #314, #108, #267 ) ;
#95 = CARTESIAN_POINT ( 'NONE',  ( -1.500000000000000444, 0.000000000000000000, 0.000000000000000000 ) ) ;
#96 = CARTESIAN_POINT ( 'NONE',  ( -2.999999999999999556, 0.000000000000000000, 6.349999999999999645 ) ) ;
#97 = APPROVAL_ROLE ( '' ) ;
#98 = DIRECTION ( 'NONE',  ( -1.000000000000000000, -0.000000000000000000, -0.000000000000000000 ) ) ;
#99 = DIRECTION ( 'NONE',  ( 0.000000000000000000, 0.000000000000000000, 1.000000000000000000 ) ) ;
#100 = DIRECTION ( 'NONE',  ( -1.000000000000000000, -0.000000000000000000, -0.000000000000000000 ) ) ;
#101 = EDGE_LOOP ( 'NONE', ( #118, #241, #169, #271 ) ) ;
#102 = VECTOR ( 'NONE', #249, 1000.000000000000000 ) ;
#103 = LOCAL_TIME ( 9, 34, 48.00000000000000000, #121 ) ;
#104 = ORIENTED_EDGE ( 'NONE', *, *, #180, .F. ) ;
#105 = DIRECTION ( 'NONE',  ( 0.000000000000000000, 0.000000000000000000, 1.000000000000000000 ) ) ;
#106 = ORIENTED_EDGE ( 'NONE', *, *, #283, .F. ) ;
#107 = ORIENTED_EDGE ( 'NONE', *, *, #218, .F. ) ;
#108 = DIRECTION ( 'NONE',  ( 0.000000000000000000, 0.000000000000000000, 1.000000000000000000 ) ) ;
#109 = APPROVAL ( #119, 'UNSPECIFIED' ) ;
#110 = APPROVAL_STATUS ( 'not_yet_approved' ) ;
#111 = ADVANCED_FACE ( 'NONE', ( #331 ), #216, .F. ) ;
#112 = DIRECTION ( 'NONE',  ( 0.000000000000000000, 0.000000000000000000, 1.000000000000000000 ) ) ;
#113 = APPROVAL_ROLE ( '' ) ;
#114 = PLANE ( 'NONE',  #214 ) ;
#115 = AXIS2_PLACEMENT_3D ( 'NONE', #125, #303, #112 ) ;
#116 = PERSON_AND_ORGANIZATION_ROLE ( 'creator' ) ;
#117 = CARTESIAN_POINT ( 'NONE',  ( -1.614212418857619014, 1.555301434917138433E-15, -12.69999999999999929 ) ) ;
#118 = ORIENTED_EDGE ( 'NONE', *, *, #238, .F. ) ;
#119 = APPROVAL_STATUS ( 'not_yet_approved' ) ;
#120 = EDGE_LOOP ( 'NONE', ( #104, #50 ) ) ;
#121 = COORDINATED_UNIVERSAL_TIME_OFFSET ( 8, 0, .AHEAD. ) ;
#122 = CARTESIAN_POINT ( 'NONE',  ( -1.500000000000000444, 6.349999999999999645, 0.000000000000000000 ) ) ;
#123 = DIRECTION ( 'NONE',  ( 0.000000000000000000, 0.000000000000000000, 1.000000000000000000 ) ) ;
#124 = AXIS2_PLACEMENT_3D ( 'NONE', #38, #86, #145 ) ;
#125 = CARTESIAN_POINT ( 'NONE',  ( 1.500000000000000888, 0.000000000000000000, 0.000000000000000000 ) ) ;
#126 = CARTESIAN_POINT ( 'NONE',  ( 1.500000000000000888, 7.776507174585692163E-16, -6.349999999999999645 ) ) ;
#127 = ADVANCED_FACE ( 'NONE', ( #170, #224 ), #193, .F. ) ;
#128 = PLANE ( 'NONE',  #313 ) ;
#129 = ORIENTED_EDGE ( 'NONE', *, *, #260, .T. ) ;
#130 = CARTESIAN_POINT ( 'NONE',  ( 3.000000000000000888, 0.000000000000000000, 0.000000000000000000 ) ) ;
#131 = VERTEX_POINT ( 'NONE', #46 ) ;
#132 = CIRCLE ( 'NONE', #188, 6.349999999999999645 ) ;
#133 = EDGE_CURVE ( 'NONE', #279, #290, #44, .T. ) ;
#134 = CARTESIAN_POINT ( 'NONE',  ( -1.614212418857619014, 0.000000000000000000, 0.000000000000000000 ) ) ;
#135 =( NAMED_UNIT ( * ) SI_UNIT ( $, .STERADIAN. ) SOLID_ANGLE_UNIT ( ) );
#136 = PERSON ( 'UNSPECIFIED', 'UNSPECIFIED', 'UNSPECIFIED', ('UNSPECIFIED'), ('UNSPECIFIED'), ('UNSPECIFIED') ) ;
#137 = CC_DESIGN_PERSON_AND_ORGANIZATION_ASSIGNMENT ( #299, #160, ( #197 ) ) ;
#138 = CC_DESIGN_APPROVAL ( #204, ( #197 ) ) ;
#139 = CARTESIAN_POINT ( 'NONE',  ( -1.614212418857619014, 0.000000000000000000, 12.69999999999999929 ) ) ;
#140 = EDGE_LOOP ( 'NONE', ( #106, #6 ) ) ;
#141 = ADVANCED_FACE ( 'NONE', ( #80 ), #128, .F. ) ;
#142 = MANIFOLD_SOLID_BREP ( 'Ðý×', #254 ) ;
#143 = FACE_OUTER_BOUND ( 'NONE', #22, .T. ) ;
#144 = ORIENTED_EDGE ( 'NONE', *, *, #288, .T. ) ;
#145 = DIRECTION ( 'NONE',  ( 0.000000000000000000, 0.000000000000000000, 1.000000000000000000 ) ) ;
#146 = EDGE_LOOP ( 'NONE', ( #257, #43, #129, #187 ) ) ;
#147 = VECTOR ( 'NONE', #198, 1000.000000000000000 ) ;
#148 = CARTESIAN_POINT ( 'NONE',  ( 3.000000000000000888, 0.000000000000000000, 0.000000000000000000 ) ) ;
#149 = ORIENTED_EDGE ( 'NONE', *, *, #48, .F. ) ;
#150 = DIRECTION ( 'NONE',  ( 0.000000000000000000, 0.000000000000000000, 1.000000000000000000 ) ) ;
#151 = CARTESIAN_POINT ( 'NONE',  ( -3.000000000000000000, 0.000000000000000000, 12.69999999999999929 ) ) ;
#152 = DIRECTION ( 'NONE',  ( -1.000000000000000000, -0.000000000000000000, -0.000000000000000000 ) ) ;
#153 = DIRECTION ( 'NONE',  ( 0.000000000000000000, 0.000000000000000000, 1.000000000000000000 ) ) ;
#154 = AXIS2_PLACEMENT_3D ( 'NONE', #20, #176, #200 ) ;
#155 = CC_DESIGN_PERSON_AND_ORGANIZATION_ASSIGNMENT ( #326, #72, ( #189 ) ) ;
#156 = APPROVAL_PERSON_ORGANIZATION ( #14, #109, #113 ) ;
#157 = EDGE_CURVE ( 'NONE', #47, #210, #54, .T. ) ;
#158 = AXIS2_PLACEMENT_3D ( 'NONE', #195, #219, #153 ) ;
#159 = CARTESIAN_POINT ( 'NONE',  ( -2.999999999999999556, 7.776507174585692163E-16, -6.349999999999999645 ) ) ;
#160 = PERSON_AND_ORGANIZATION_ROLE ( 'classification_officer' ) ;
#161 = DIRECTION ( 'NONE',  ( 0.000000000000000000, 0.000000000000000000, -1.000000000000000000 ) ) ;
#162 = APPLICATION_CONTEXT ( 'configuration controlled 3d designs of mechanical parts and assemblies' ) ;
#163 = CIRCLE ( 'NONE', #83, 6.349999999999999645 ) ;
#164 = LINE ( 'NONE', #244, #25 ) ;
#165 = ORIENTED_EDGE ( 'NONE', *, *, #68, .T. ) ;
#166 = EDGE_CURVE ( 'NONE', #290, #37, #42, .T. ) ;
#167 = APPROVAL_DATE_TIME ( #272, #261 ) ;
#168 = DIRECTION ( 'NONE',  ( 0.000000000000000000, 0.000000000000000000, 1.000000000000000000 ) ) ;
#169 = ORIENTED_EDGE ( 'NONE', *, *, #166, .T. ) ;
#170 = FACE_BOUND ( 'NONE', #194, .T. ) ;
#171 = DIRECTION ( 'NONE',  ( -1.000000000000000000, -0.000000000000000000, -0.000000000000000000 ) ) ;
#172 = CIRCLE ( 'NONE', #35, 6.349999999999999645 ) ;
#173 = PLANE ( 'NONE',  #186 ) ;
#174 = ORIENTED_EDGE ( 'NONE', *, *, #166, .F. ) ;
#175 = ORIENTED_EDGE ( 'NONE', *, *, #291, .T. ) ;
#176 = DIRECTION ( 'NONE',  ( 1.000000000000000000, 0.000000000000000000, 0.000000000000000000 ) ) ;
#177 = CC_DESIGN_SECURITY_CLASSIFICATION ( #197, ( #205 ) ) ;
#178 = PRODUCT_RELATED_PRODUCT_CATEGORY ( 'detail', '', ( #40 ) ) ;
#179 =( GEOMETRIC_REPRESENTATION_CONTEXT ( 3 ) GLOBAL_UNCERTAINTY_ASSIGNED_CONTEXT ( ( #309 ) ) GLOBAL_UNIT_ASSIGNED_CONTEXT ( ( #32, #53, #135 ) ) REPRESENTATION_CONTEXT ( 'NONE', 'WORKASPACE' ) );
#180 = EDGE_CURVE ( 'NONE', #210, #47, #284, .T. ) ;
#181 = DIRECTION ( 'NONE',  ( -1.000000000000000000, -0.000000000000000000, -0.000000000000000000 ) ) ;
#182 = CALENDAR_DATE ( 2020, 24, 12 ) ;
#183 = LINE ( 'NONE', #73, #77 ) ;
#184 = CARTESIAN_POINT ( 'NONE',  ( 3.000000000000000000, 0.000000000000000000, 12.69999999999999929 ) ) ;
#185 = CYLINDRICAL_SURFACE ( 'NONE', #233, 12.69999999999999929 ) ;
#186 = AXIS2_PLACEMENT_3D ( 'NONE', #49, #17, #307 ) ;
#187 = ORIENTED_EDGE ( 'NONE', *, *, #61, .T. ) ;
#188 = AXIS2_PLACEMENT_3D ( 'NONE', #84, #181, #264 ) ;
#189 = PRODUCT_DEFINITION ( 'UNKNOWN', '', #205, #29 ) ;
#190 = DATE_AND_TIME ( #324, #103 ) ;
#191 = DIRECTION ( 'NONE',  ( 1.000000000000000000, 0.000000000000000000, 0.000000000000000000 ) ) ;
#192 = ORIENTED_EDGE ( 'NONE', *, *, #283, .T. ) ;
#193 = PLANE ( 'NONE',  #154 ) ;
#194 = EDGE_LOOP ( 'NONE', ( #202, #18 ) ) ;
#195 = CARTESIAN_POINT ( 'NONE',  ( -1.614212418857619014, 0.000000000000000000, 0.000000000000000000 ) ) ;
#196 = ORIENTED_EDGE ( 'NONE', *, *, #68, .F. ) ;
#197 = SECURITY_CLASSIFICATION ( '', '', #41 ) ;
#198 = DIRECTION ( 'NONE',  ( -1.000000000000000000, -0.000000000000000000, -0.000000000000000000 ) ) ;
#199 = ADVANCED_FACE ( 'NONE', ( #206 ), #296, .F. ) ;
#200 = DIRECTION ( 'NONE',  ( 0.000000000000000000, 0.000000000000000000, -1.000000000000000000 ) ) ;
#201 = ORIENTED_EDGE ( 'NONE', *, *, #133, .F. ) ;
#202 = ORIENTED_EDGE ( 'NONE', *, *, #61, .F. ) ;
#203 = CC_DESIGN_APPROVAL ( #109, ( #189 ) ) ;
#204 = APPROVAL ( #110, 'UNSPECIFIED' ) ;
#205 = PRODUCT_DEFINITION_FORMATION_WITH_SPECIFIED_SOURCE ( 'ANY', '', #40, .NOT_KNOWN. ) ;
#206 = FACE_OUTER_BOUND ( 'NONE', #90, .T. ) ;
#207 = DIRECTION ( 'NONE',  ( 0.000000000000000000, 0.000000000000000000, -1.000000000000000000 ) ) ;
#208 = PERSON_AND_ORGANIZATION_ROLE ( 'design_supplier' ) ;
#209 = DIRECTION ( 'NONE',  ( 0.000000000000000000, 0.000000000000000000, -1.000000000000000000 ) ) ;
#210 = VERTEX_POINT ( 'NONE', #232 ) ;
#211 = DIRECTION ( 'NONE',  ( -1.000000000000000000, -0.000000000000000000, -0.000000000000000000 ) ) ;
#212 = EDGE_LOOP ( 'NONE', ( #149, #201 ) ) ;
#213 = DIRECTION ( 'NONE',  ( -1.000000000000000000, -0.000000000000000000, -0.000000000000000000 ) ) ;
#214 = AXIS2_PLACEMENT_3D ( 'NONE', #122, #321, #209 ) ;
#215 = VERTEX_POINT ( 'NONE', #11 ) ;
#216 = CYLINDRICAL_SURFACE ( 'NONE', #158, 6.349999999999999645 ) ;
#217 = ORIENTED_EDGE ( 'NONE', *, *, #62, .T. ) ;
#218 = EDGE_CURVE ( 'NONE', #37, #334, #28, .T. ) ;
#219 = DIRECTION ( 'NONE',  ( -1.000000000000000000, -0.000000000000000000, -0.000000000000000000 ) ) ;
#220 = EDGE_LOOP ( 'NONE', ( #325, #165 ) ) ;
#221 = EDGE_CURVE ( 'NONE', #39, #215, #266, .T. ) ;
#222 = FACE_OUTER_BOUND ( 'NONE', #101, .T. ) ;
#223 = AXIS2_PLACEMENT_3D ( 'NONE', #286, #191, #207 ) ;
#224 = FACE_OUTER_BOUND ( 'NONE', #258, .T. ) ;
#225 = ORIENTED_EDGE ( 'NONE', *, *, #238, .T. ) ;
#226 = PERSON_AND_ORGANIZATION ( #136, #304 ) ;
#227 = AXIS2_PLACEMENT_3D ( 'NONE', #134, #100, #306 ) ;
#228 = APPROVAL_PERSON_ORGANIZATION ( #226, #204, #315 ) ;
#229 = APPROVAL_PERSON_ORGANIZATION ( #287, #261, #97 ) ;
#230 = PRODUCT_DEFINITION_SHAPE ( 'NONE', 'NONE',  #189 ) ;
#231 = ADVANCED_FACE ( 'NONE', ( #143 ), #317, .F. ) ;
#232 = CARTESIAN_POINT ( 'NONE',  ( 1.500000000000000888, 0.000000000000000000, 6.349999999999999645 ) ) ;
#233 = AXIS2_PLACEMENT_3D ( 'NONE', #297, #78, #305 ) ;
#234 = AXIS2_PLACEMENT_3D ( 'NONE', #148, #89, #316 ) ;
#235 = DATE_TIME_ROLE ( 'classification_date' ) ;
#236 = CARTESIAN_POINT ( 'NONE',  ( 1.500000000000000888, 0.000000000000000000, 0.000000000000000000 ) ) ;
#237 = ORIENTED_EDGE ( 'NONE', *, *, #48, .T. ) ;
#238 = EDGE_CURVE ( 'NONE', #279, #334, #268, .T. ) ;
#239 = COORDINATED_UNIVERSAL_TIME_OFFSET ( 8, 0, .AHEAD. ) ;
#240 = DIRECTION ( 'NONE',  ( -1.000000000000000000, -0.000000000000000000, -0.000000000000000000 ) ) ;
#241 = ORIENTED_EDGE ( 'NONE', *, *, #133, .T. ) ;
#242 = PERSON_AND_ORGANIZATION ( #136, #304 ) ;
#243 = CC_DESIGN_PERSON_AND_ORGANIZATION_ASSIGNMENT ( #7, #208, ( #205 ) ) ;
#244 = CARTESIAN_POINT ( 'NONE',  ( -1.614212418857619014, 7.776507174585692163E-16, -6.349999999999999645 ) ) ;
#245 = EDGE_LOOP ( 'NONE', ( #265, #34, #24, #330 ) ) ;
#246 = CARTESIAN_POINT ( 'NONE',  ( 1.500000000000000444, 6.349999999999999645, 0.000000000000000000 ) ) ;
#247 = DIRECTION ( 'NONE',  ( -1.000000000000000000, -0.000000000000000000, -0.000000000000000000 ) ) ;
#248 = DATE_TIME_ROLE ( 'creation_date' ) ;
#249 = DIRECTION ( 'NONE',  ( -1.000000000000000000, -0.000000000000000000, -0.000000000000000000 ) ) ;
#250 = LINE ( 'NONE', #300, #102 ) ;
#251 = DIRECTION ( 'NONE',  ( -1.000000000000000000, 0.000000000000000000, -0.000000000000000000 ) ) ;
#252 = ORIENTED_EDGE ( 'NONE', *, *, #218, .T. ) ;
#253 = APPLICATION_CONTEXT ( 'configuration controlled 3d designs of mechanical parts and assemblies' ) ;
#254 = CLOSED_SHELL ( 'NONE', ( #3, #231, #199, #141, #30, #111, #127, #82, #88, #275 ) ) ;
#255 = CARTESIAN_POINT ( 'NONE',  ( -2.999999999999999556, 0.000000000000000000, 0.000000000000000000 ) ) ;
#256 = LOCAL_TIME ( 9, 34, 48.00000000000000000, #263 ) ;
#257 = ORIENTED_EDGE ( 'NONE', *, *, #62, .F. ) ;
#258 = EDGE_LOOP ( 'NONE', ( #252, #310 ) ) ;
#259 = CALENDAR_DATE ( 2020, 24, 12 ) ;
#260 = EDGE_CURVE ( 'NONE', #215, #23, #183, .T. ) ;
#261 = APPROVAL ( #4, 'UNSPECIFIED' ) ;
#262 = CARTESIAN_POINT ( 'NONE',  ( -3.000000000000000000, 1.555301434917138433E-15, -12.69999999999999929 ) ) ;
#263 = COORDINATED_UNIVERSAL_TIME_OFFSET ( 8, 0, .AHEAD. ) ;
#264 = DIRECTION ( 'NONE',  ( 0.000000000000000000, 0.000000000000000000, 1.000000000000000000 ) ) ;
#265 = ORIENTED_EDGE ( 'NONE', *, *, #291, .F. ) ;
#266 = CIRCLE ( 'NONE', #223, 6.349999999999999645 ) ;
#267 = DIRECTION ( 'NONE',  ( 1.000000000000000000, 0.000000000000000000, 0.000000000000000000 ) ) ;
#268 = LINE ( 'NONE', #117, #60 ) ;
#269 = EDGE_LOOP ( 'NONE', ( #237, #225, #107, #174 ) ) ;
#270 = DIRECTION ( 'NONE',  ( -1.000000000000000000, -0.000000000000000000, -0.000000000000000000 ) ) ;
#271 = ORIENTED_EDGE ( 'NONE', *, *, #55, .F. ) ;
#272 = DATE_AND_TIME ( #45, #69 ) ;
#273 = FACE_OUTER_BOUND ( 'NONE', #140, .T. ) ;
#274 = VERTEX_POINT ( 'NONE', #65 ) ;
#275 = ADVANCED_FACE ( 'NONE', ( #273 ), #114, .F. ) ;
#276 = DIRECTION ( 'NONE',  ( -1.000000000000000000, -0.000000000000000000, -0.000000000000000000 ) ) ;
#277 = DIRECTION ( 'NONE',  ( 0.000000000000000000, 0.000000000000000000, 1.000000000000000000 ) ) ;
#278 = EDGE_CURVE ( 'NONE', #274, #131, #323, .T. ) ;
#279 = VERTEX_POINT ( 'NONE', #1 ) ;
#280 = CYLINDRICAL_SURFACE ( 'NONE', #227, 12.69999999999999929 ) ;
#281 = ADVANCED_BREP_SHAPE_REPRESENTATION ( 'QB-CTZHWP-12.7-1550-M', ( #142, #94 ), #179 ) ;
#282 = AXIS2_PLACEMENT_3D ( 'NONE', #8, #270, #168 ) ;
#283 = EDGE_CURVE ( 'NONE', #215, #39, #172, .T. ) ;
#284 = CIRCLE ( 'NONE', #81, 6.349999999999999645 ) ;
#285 = AXIS2_PLACEMENT_3D ( 'NONE', #67, #70, #123 ) ;
#286 = CARTESIAN_POINT ( 'NONE',  ( -1.500000000000000444, 0.000000000000000000, 0.000000000000000000 ) ) ;
#287 = PERSON_AND_ORGANIZATION ( #136, #304 ) ;
#288 = EDGE_CURVE ( 'NONE', #301, #23, #132, .T. ) ;
#289 = DIRECTION ( 'NONE',  ( -1.000000000000000000, -0.000000000000000000, -0.000000000000000000 ) ) ;
#290 = VERTEX_POINT ( 'NONE', #184 ) ;
#291 = EDGE_CURVE ( 'NONE', #131, #47, #164, .T. ) ;
#292 = LOCAL_TIME ( 9, 34, 48.00000000000000000, #312 ) ;
#293 = CARTESIAN_POINT ( 'NONE',  ( -1.614212418857619014, 0.000000000000000000, 0.000000000000000000 ) ) ;
#294 = CYLINDRICAL_SURFACE ( 'NONE', #285, 6.349999999999999645 ) ;
#295 = COORDINATED_UNIVERSAL_TIME_OFFSET ( 8, 0, .AHEAD. ) ;
#296 = CYLINDRICAL_SURFACE ( 'NONE', #311, 6.349999999999999645 ) ;
#297 = CARTESIAN_POINT ( 'NONE',  ( -1.614212418857619014, 0.000000000000000000, 0.000000000000000000 ) ) ;
#298 = CC_DESIGN_PERSON_AND_ORGANIZATION_ASSIGNMENT ( #64, #116, ( #205 ) ) ;
#299 = PERSON_AND_ORGANIZATION ( #136, #304 ) ;
#300 = CARTESIAN_POINT ( 'NONE',  ( -1.614212418857619014, 0.000000000000000000, 6.349999999999999645 ) ) ;
#301 = VERTEX_POINT ( 'NONE', #159 ) ;
#302 = APPLICATION_PROTOCOL_DEFINITION ( 'international standard', 'config_control_design', 1994, #162 ) ;
#303 = DIRECTION ( 'NONE',  ( -1.000000000000000000, -0.000000000000000000, -0.000000000000000000 ) ) ;
#304 = ORGANIZATION ( 'UNSPECIFIED', 'UNSPECIFIED', '' ) ;
#305 = DIRECTION ( 'NONE',  ( 0.000000000000000000, 0.000000000000000000, 1.000000000000000000 ) ) ;
#306 = DIRECTION ( 'NONE',  ( 0.000000000000000000, 0.000000000000000000, 1.000000000000000000 ) ) ;
#307 = DIRECTION ( 'NONE',  ( -0.000000000000000000, 0.000000000000000000, 1.000000000000000000 ) ) ;
#308 = APPROVAL_DATE_TIME ( #51, #204 ) ;
#309 = UNCERTAINTY_MEASURE_WITH_UNIT (LENGTH_MEASURE( 1.000000000000000082E-05 ), #32, 'distance_accuracy_value', 'NONE');
#310 = ORIENTED_EDGE ( 'NONE', *, *, #55, .T. ) ;
#311 = AXIS2_PLACEMENT_3D ( 'NONE', #293, #63, #36 ) ;
#312 = COORDINATED_UNIVERSAL_TIME_OFFSET ( 8, 0, .AHEAD. ) ;
#313 = AXIS2_PLACEMENT_3D ( 'NONE', #246, #251, #15 ) ;
#314 = CARTESIAN_POINT ( 'NONE',  ( 0.000000000000000000, 0.000000000000000000, 0.000000000000000000 ) ) ;
#315 = APPROVAL_ROLE ( '' ) ;
#316 = DIRECTION ( 'NONE',  ( 0.000000000000000000, 0.000000000000000000, 1.000000000000000000 ) ) ;
#317 = CYLINDRICAL_SURFACE ( 'NONE', #124, 6.349999999999999645 ) ;
#318 = DIRECTION ( 'NONE',  ( 0.000000000000000000, 0.000000000000000000, 1.000000000000000000 ) ) ;
#319 = ORIENTED_EDGE ( 'NONE', *, *, #260, .F. ) ;
#320 = DATE_AND_TIME ( #182, #21 ) ;
#321 = DIRECTION ( 'NONE',  ( 1.000000000000000000, 0.000000000000000000, 0.000000000000000000 ) ) ;
#322 = CIRCLE ( 'NONE', #13, 12.69999999999999929 ) ;
#323 = CIRCLE ( 'NONE', #234, 6.349999999999999645 ) ;
#324 = CALENDAR_DATE ( 2020, 24, 12 ) ;
#325 = ORIENTED_EDGE ( 'NONE', *, *, #278, .T. ) ;
#326 = PERSON_AND_ORGANIZATION ( #136, #304 ) ;
#327 = FACE_BOUND ( 'NONE', #220, .T. ) ;
#328 = CARTESIAN_POINT ( 'NONE',  ( -1.500000000000000444, 7.776507174585692163E-16, -6.349999999999999645 ) ) ;
#329 = LINE ( 'NONE', #75, #147 ) ;
#330 = ORIENTED_EDGE ( 'NONE', *, *, #180, .T. ) ;
#331 = FACE_OUTER_BOUND ( 'NONE', #146, .T. ) ;
#332 = AXIS2_PLACEMENT_3D ( 'NONE', #333, #276, #150 ) ;
#333 = CARTESIAN_POINT ( 'NONE',  ( 3.000000000000000000, 0.000000000000000000, 0.000000000000000000 ) ) ;
#334 = VERTEX_POINT ( 'NONE', #262 ) ;
#335 = SHAPE_DEFINITION_REPRESENTATION ( #230, #281 ) ;
ENDSEC;
END-ISO-10303-21;
